Thursday, March 4, 2010

Kiss Me Guitar Chords

The song Kiss Me by Sixpence None The Richer was featured last night on American Idol. I used to play this song years ago when I performed as an acoustic guitar duo with a female singer named Michelle Enix. I happen to have a live recording and pic from those days that I posted below.




Guitar Chords
The chords to this song make for a good guitar lesson on using chord extensions. Both dominant and major seven chords are used. I don't know if my version matches the original recording or not, but I play it with a capo at the first fret starting on an open D chord. All the chords are available in guitar tab below.

Kiss Me Guitar Tabs

Verse (CAPO II)
D Dmaj7 D7 Dmaj7 (repeating and finishing the verse on G)

E----2----2----2----2----|----2----2----2----3--------|
B----3----2----1----2----|----3----2----1----3--------|
G----2----2----2----2----|----2----2----2----0--------|
D----0----0----0----0----|----0----0----0----0--------|
A------------------------|-------------------2--------|
E------------------------|-------------------3--------|

Chorus (CAPO II)
Em A D Bm, Em A D D7, Em A D A/C# Bm A G Gmaj7 A Asus4 A

E----0----0----2----2----0----0----2------------------|
B----0----2----3----3----0----2----3----3-------------|
G----0----2----2----4----0----2----2----5-------------|
D----2----2----0----4----2----2----0----4-------------|
A----2----0---------2----2----0---------5-------------|
E----0-------------------0----------------------------|

E----0----0----2---------2----0----3--2---------------|
B----0----2----3----2----3----2----3--3----2--3--2----|
G----0----2----2----2----4----2----0--0----2--2--2----|
D----2----2----0----2----4----2----0--0----2--2--2----|
A----2----0---------4----2----0----2--x----0--0--0----|
E----0-----------------------------3--3---------------|


Guitar Theory
To learn more about chord extensions see Fretboard Theory Chapter 10.


Bookmark and Share


Play Until Yer Fingers Bleed!
Mr. Desi Serna
Website: http://Guitar-Music-Theory.com
YouTube: http://youtube.com/GuitarMusicTheoryTab
Twitter: http://twitter.com/MrGuitarTheory
Facebook: http://facebook.com/desi.serna
Myspace: http://www.myspace.com/guitarmusictheory
Podcast: Search Desi Serna at iTunes

1 comment:

online video guitar lesson said...

Yeah. I have always liked that song. Thanks for sharing the guitar chords.