Monday, November 9, 2009

Holy Holy Holy Guitar Tabs

http://blip.tv/file/2826572


"Holy Holy Holy" is a traditional Christian hymn and praise and worship song. This is a fingerstyle chord melody version for intermediate and advanced guitar players with finger picking experience. It's a great lesson on how to use shapes and inversions based on the CAGED Guitar Chord system.



D Bm A A7 D G Em7 D/F#
E--------2--2--5-----2-----7---7---7---7--------------|
B--3--3--3--3--5--8--3-----8---8---8---8--10--7-------|
G--2--2--4--4--6--6--2-----7---7---7---7--7---7-------|
D--0--0-----------7--0--------------------7---7-------|
A--------2--2--0--0--------10--10--10--7--9---9-------|
E-----------------------------------------------------|

A D A/C# Bm E7 A D A E7 A A7
E--------------10--10--9----------5--7----------------|
B--5--5--7-----7---9---10--10--5-----9--10--10--5-----|
G--6--6--7--9--7---9---9---11--6-----7------9---6-----|
D--7--7--7--7------------------7------------11--5-----|
A--0--0--5-------------0-------0------------0---0-----|
E-----------9--7---0-----------------0----------------|


D Bm A A7 D G Em7 D/F#
E--------2--2--5-----2-----7---7---7---7--------------|
B--3--3--3--3--5--8--3-----8---8---8---8--10--7-------|
G--2--2--4--4--6--6--2-----7---7---7---7--7---7-------|
D--0--0-----------7--0--------------------7---7-------|
A--------2--2--0--0--------10--10--10--7--9---9-------|
E-----------------------------------------------------|


Bm D/F# G D G/B A D
E--10----------7--------------------------------------|
B--7---10--10--8---7-----8--5--5--3--3----------------|
G--7---7---7---7---7-----7-----6-----2----------------|
D------7---7-------7-----5-----7-----0----------------|
A------9---9---10--5-----------0----------------------|
E--7------------------8--7----------------------------|



Bookmark and Share


Play Until Yer Fingers Bleed!
Mr. Desi Serna
Website: http://Guitar-Music-Theory.com
YouTube: http://youtube.com/GuitarMusicTheoryTab
Twitter: http://twitter.com/MrGuitarTheory
Facebook: http://facebook.com/desi.serna
Myspace: http://www.myspace.com/guitarmusictheory
Podcast: Search Desi Serna at iTunes

1 comment:

neiveweird_999 said...

dude i like this more tabs please can you make tabs on as the deer please